ISO-10303-21;
HEADER;
FILE_DESCRIPTION (( 'STEP AP203' ),
    '1' );
FILE_NAME ('End Cap SDR11_001 117 0140 0280.step',
    '2019-12-16T11:41:11',
    ( '' ),
    ( '' ),
    'SwSTEP 2.0',
    'SolidWorks 2019',
    '' );
FILE_SCHEMA (( 'CONFIG_CONTROL_DESIGN' ));
ENDSEC;

DATA;
#1 = FACE_OUTER_BOUND ( 'NONE', #97, .T. ) ;
#2 = FACE_OUTER_BOUND ( 'NONE', #181, .T. ) ;
#3 = DIRECTION ( 'NONE',  ( 0.0000000000000000000, 0.0000000000000000000, -1.000000000000000000 ) ) ;
#4 = CIRCLE ( 'NONE', #269, 140.0000000000000000 ) ;
#5 = AXIS2_PLACEMENT_3D ( 'NONE', #185, #182, #178 ) ;
#6 = DIRECTION ( 'NONE',  ( -0.0000000000000000000, -1.000000000000000000, -0.0000000000000000000 ) ) ;
#7 = CARTESIAN_POINT ( 'NONE',  ( 0.0000000000000000000, 0.0000000000000000000, 0.0000000000000000000 ) ) ;
#8 = DIRECTION ( 'NONE',  ( 0.0000000000000000000, 0.0000000000000000000, -1.000000000000000000 ) ) ;
#9 = DIRECTION ( 'NONE',  ( -0.0000000000000000000, -1.000000000000000000, -0.0000000000000000000 ) ) ;
#10 = CARTESIAN_POINT ( 'NONE',  ( 0.0000000000000000000, 139.0000000000001137, 0.0000000000000000000 ) ) ;
#11 = ADVANCED_FACE ( 'NONE', ( #85 ), #83, .F. ) ;
#12 = DIRECTION ( 'NONE',  ( -0.0000000000000000000, -1.000000000000000000, -0.0000000000000000000 ) ) ;
#13 = CARTESIAN_POINT ( 'NONE',  ( 0.0000000000000000000, 0.0000000000000000000, -114.5999999999999943 ) ) ;
#14 = TOROIDAL_SURFACE ( 'NONE', #5, -3.892584400652262300, 419.9999999999999432 ) ;
#15 = DIRECTION ( 'NONE',  ( 0.0000000000000000000, 0.0000000000000000000, -1.000000000000000000 ) ) ;
#16 = LINE ( 'NONE', #13, #114 ) ;
#17 = FACE_OUTER_BOUND ( 'NONE', #136, .T. ) ;
#18 = DIRECTION ( 'NONE',  ( 0.0000000000000000000, 0.0000000000000000000, -1.000000000000000000 ) ) ;
#19 = LOCAL_TIME ( 14, 41, 11.00000000000000000, #306 ) ;
#20 = DIRECTION ( 'NONE',  ( 0.0000000000000000000, 0.0000000000000000000, -1.000000000000000000 ) ) ;
#21 = DIRECTION ( 'NONE',  ( -0.0000000000000000000, -1.000000000000000000, -0.0000000000000000000 ) ) ;
#22 = CARTESIAN_POINT ( 'NONE',  ( 0.0000000000000000000, 0.0000000000000000000, 0.0000000000000000000 ) ) ;
#23 = APPLICATION_PROTOCOL_DEFINITION ( 'international standard', 'config_control_design', 1994, #255 ) ;
#24 = CYLINDRICAL_SURFACE ( 'NONE', #106, 114.5999999999999943 ) ;
#25 = FACE_OUTER_BOUND ( 'NONE', #108, .T. ) ;
#26 = PERSON_AND_ORGANIZATION_ROLE ( 'design_owner' ) ;
#27 = CARTESIAN_POINT ( 'NONE',  ( -7.068998164605488910E-14, 182.5917597306779214, 0.0000000000000000000 ) ) ;
#28 = CARTESIAN_POINT ( 'NONE',  ( 0.0000000000000000000, 0.0000000000000000000, -114.6000000000000227 ) ) ;
#29 = AXIS2_PLACEMENT_3D ( 'NONE', #298, #133, #225 ) ;
#30 = DATE_AND_TIME ( #253, #235 ) ;
#31 = CARTESIAN_POINT ( 'NONE',  ( 0.0000000000000000000, 0.0000000000000000000, -140.0000000000000000 ) ) ;
#32 = CARTESIAN_POINT ( 'NONE',  ( 1.403445231822866439E-14, 139.0000000000001137, 114.5999999999999659 ) ) ;
#33 = DIRECTION ( 'NONE',  ( 0.0000000000000000000, 0.0000000000000000000, -1.000000000000000000 ) ) ;
#34 = SECURITY_CLASSIFICATION_LEVEL ( 'unclassified' ) ;
#35 = CARTESIAN_POINT ( 'NONE',  ( 1.714505518806294599E-14, 0.0000000000000000000, 140.0000000000000000 ) ) ;
#36 = DIRECTION ( 'NONE',  ( 0.0000000000000000000, 0.0000000000000000000, -1.000000000000000000 ) ) ;
#37 = APPROVAL_DATE_TIME ( #257, #104 ) ;
#38 = DIRECTION ( 'NONE',  ( -0.0000000000000000000, -1.000000000000000000, -0.0000000000000000000 ) ) ;
#39 = CARTESIAN_POINT ( 'NONE',  ( 0.0000000000000000000, 0.0000000000000000000, 0.0000000000000000000 ) ) ;
#40 = CIRCLE ( 'NONE', #51, 139.9999999999999716 ) ;
#41 = AXIS2_PLACEMENT_3D ( 'NONE', #301, #305, #82 ) ;
#42 = CYLINDRICAL_SURFACE ( 'NONE', #116, 140.0000000000000000 ) ;
#43 = FACE_OUTER_BOUND ( 'NONE', #86, .T. ) ;
#44 = DIRECTION ( 'NONE',  ( -0.0000000000000000000, -1.000000000000000000, -0.0000000000000000000 ) ) ;
#45 = CC_DESIGN_APPROVAL ( #264, ( #261 ) ) ;
#46 = CARTESIAN_POINT ( 'NONE',  ( 1.714505518806294599E-14, 0.0000000000000000000, 140.0000000000000000 ) ) ;
#47 = DIRECTION ( 'NONE',  ( 0.0000000000000000000, 0.0000000000000000000, -1.000000000000000000 ) ) ;
#48 = DIRECTION ( 'NONE',  ( -0.0000000000000000000, -1.000000000000000000, -0.0000000000000000000 ) ) ;
#49 = CARTESIAN_POINT ( 'NONE',  ( 0.0000000000000000000, -237.3902015327598463, 0.0000000000000000000 ) ) ;
#50 = LINE ( 'NONE', #46, #127 ) ;
#51 = AXIS2_PLACEMENT_3D ( 'NONE', #197, #246, #15 ) ;
#52 = FACE_OUTER_BOUND ( 'NONE', #88, .T. ) ;
#53 = DIRECTION ( 'NONE',  ( 0.0000000000000000000, 0.0000000000000000000, 1.000000000000000000 ) ) ;
#54 = CARTESIAN_POINT ( 'NONE',  ( 0.0000000000000000000, 157.1917597306779157, -139.9999999999999716 ) ) ;
#55 = CARTESIAN_POINT ( 'NONE',  ( 1.714505518806294283E-14, 157.1917597306779157, 139.9999999999999716 ) ) ;
#56 = TOROIDAL_SURFACE ( 'NONE', #41, -3.892584400652262300, 394.6011611333871087 ) ;
#57 = CARTESIAN_POINT ( 'NONE',  ( 0.0000000000000000000, -237.3902015327598463, 3.892584400652262300 ) ) ;
#58 = CARTESIAN_POINT ( 'NONE',  ( 1.403445231822867070E-14, 0.0000000000000000000, 114.6000000000000227 ) ) ;
#59 = CARTESIAN_POINT ( 'NONE',  ( -2.160526485124692509E-14, 157.1917597306779157, 0.0000000000000000000 ) ) ;
#60 = DIRECTION ( 'NONE',  ( -1.224646799147353207E-16, 0.0000000000000000000, -1.000000000000000000 ) ) ;
#61 = CARTESIAN_POINT ( 'NONE',  ( 0.0000000000000000000, 139.0000000000001137, -114.5999999999999659 ) ) ;
#62 = EDGE_CURVE ( 'NONE', #109, #174, #76, .T. ) ;
#63 = AXIS2_PLACEMENT_3D ( 'NONE', #209, #263, #53 ) ;
#64 = DIRECTION ( 'NONE',  ( 0.0000000000000000000, 0.0000000000000000000, -1.000000000000000000 ) ) ;
#65 = DIRECTION ( 'NONE',  ( -0.0000000000000000000, -1.000000000000000000, -0.0000000000000000000 ) ) ;
#66 = CARTESIAN_POINT ( 'NONE',  ( 0.0000000000000000000, 0.0000000000000000000, 0.0000000000000000000 ) ) ;
#67 = DIRECTION ( 'NONE',  ( -0.0000000000000000000, -1.000000000000000000, -0.0000000000000000000 ) ) ;
#68 = PERSON_AND_ORGANIZATION_ROLE ( 'creator' ) ;
#69 = CARTESIAN_POINT ( 'NONE',  ( 1.403445231822866754E-14, 0.0000000000000000000, 114.5999999999999943 ) ) ;
#70 = LINE ( 'NONE', #69, #161 ) ;
#71 = PERSON_AND_ORGANIZATION_ROLE ( 'creator' ) ;
#72 = DIRECTION ( 'NONE',  ( -0.0000000000000000000, -1.000000000000000000, -0.0000000000000000000 ) ) ;
#73 = COORDINATED_UNIVERSAL_TIME_OFFSET ( 3, 0, .AHEAD. ) ;
#74 = AXIS2_PLACEMENT_3D ( 'NONE', #7, #6, #3 ) ;
#75 = CARTESIAN_POINT ( 'NONE',  ( 0.0000000000000000000, 0.0000000000000000000, -140.0000000000000000 ) ) ;
#76 = LINE ( 'NONE', #75, #163 ) ;
#77 = EDGE_CURVE ( 'NONE', #173, #103, #70, .T. ) ;
#78 = DIRECTION ( 'NONE',  ( 0.0000000000000000000, 0.0000000000000000000, -1.000000000000000000 ) ) ;
#79 = CIRCLE ( 'NONE', #74, 114.6000000000000227 ) ;
#80 = DIRECTION ( 'NONE',  ( -0.0000000000000000000, -1.000000000000000000, -0.0000000000000000000 ) ) ;
#81 = CARTESIAN_POINT ( 'NONE',  ( 0.0000000000000000000, 0.0000000000000000000, 0.0000000000000000000 ) ) ;
#82 = DIRECTION ( 'NONE',  ( 0.0000000000000000000, 0.0000000000000000000, -1.000000000000000000 ) ) ;
#83 = CYLINDRICAL_SURFACE ( 'NONE', #162, 114.5999999999999943 ) ;
#84 = LOCAL_TIME ( 14, 41, 11.00000000000000000, #73 ) ;
#85 = FACE_OUTER_BOUND ( 'NONE', #95, .T. ) ;
#86 = EDGE_LOOP ( 'NONE', ( #125, #113, #121, #120 ) ) ;
#87 = AXIS2_PLACEMENT_3D ( 'NONE', #10, #9, #8 ) ;
#88 = EDGE_LOOP ( 'NONE', ( #148, #150, #153 ) ) ;
#89 = EDGE_LOOP ( 'NONE', ( #128, #126 ) ) ;
#90 = EDGE_CURVE ( 'NONE', #103, #175, #155, .T. ) ;
#91 = VERTEX_POINT ( 'NONE', #61 ) ;
#92 = DIRECTION ( 'NONE',  ( 0.0000000000000000000, 0.0000000000000000000, -1.000000000000000000 ) ) ;
#93 = ORIENTED_EDGE ( 'NONE', *, *, #192, .T. ) ;
#94 = AXIS2_PLACEMENT_3D ( 'NONE', #234, #283, #99 ) ;
#95 = EDGE_LOOP ( 'NONE', ( #123, #122, #93, #177 ) ) ;
#96 = CARTESIAN_POINT ( 'NONE',  ( 114.6000000000000227, 0.0000000000000000000, 0.0000000000000000000 ) ) ;
#97 = EDGE_LOOP ( 'NONE', ( #147, #156, #183 ) ) ;
#98 = CIRCLE ( 'NONE', #87, 114.5999999999999659 ) ;
#99 = DIRECTION ( 'NONE',  ( -1.224646799147353207E-16, 0.0000000000000000000, -1.000000000000000000 ) ) ;
#100 = ORIENTED_EDGE ( 'NONE', *, *, #222, .T. ) ;
#101 = VERTEX_POINT ( 'NONE', #59 ) ;
#102 = DIRECTION ( 'NONE',  ( 0.0000000000000000000, 0.0000000000000000000, 1.000000000000000000 ) ) ;
#103 = VERTEX_POINT ( 'NONE', #58 ) ;
#104 = APPROVAL ( #219, 'BELÝRTÝLMEMÝÞ' ) ;
#105 = VERTEX_POINT ( 'NONE', #55 ) ;
#106 = AXIS2_PLACEMENT_3D ( 'NONE', #22, #21, #18 ) ;
#107 = DATE_AND_TIME ( #287, #218 ) ;
#108 = EDGE_LOOP ( 'NONE', ( #138, #137, #135, #134 ) ) ;
#109 = VERTEX_POINT ( 'NONE', #54 ) ;
#110 = DATE_AND_TIME ( #288, #176 ) ;
#111 = PRODUCT_DEFINITION_FORMATION_WITH_SPECIFIED_SOURCE ( 'HERHANGÝ', '', #194, .NOT_KNOWN. ) ;
#112 = PERSON_AND_ORGANIZATION ( #213, #195 ) ;
#113 = ORIENTED_EDGE ( 'NONE', *, *, #208, .T. ) ;
#114 = VECTOR ( 'NONE', #12, 1000.000000000000000 ) ;
#115 = PRODUCT_RELATED_PRODUCT_CATEGORY ( 'detail', '', ( #194 ) ) ;
#116 = AXIS2_PLACEMENT_3D ( 'NONE', #39, #38, #36 ) ;
#117 = ORIENTED_EDGE ( 'NONE', *, *, #237, .T. ) ;
#118 = AXIS2_PLACEMENT_3D ( 'NONE', #172, #233, #296 ) ;
#119 = ORIENTED_EDGE ( 'NONE', *, *, #245, .F. ) ;
#120 = ORIENTED_EDGE ( 'NONE', *, *, #206, .F. ) ;
#121 = ORIENTED_EDGE ( 'NONE', *, *, #62, .T. ) ;
#122 = ORIENTED_EDGE ( 'NONE', *, *, #193, .F. ) ;
#123 = ORIENTED_EDGE ( 'NONE', *, *, #77, .F. ) ;
#124 = AXIS2_PLACEMENT_3D ( 'NONE', #223, #280, #92 ) ;
#125 = ORIENTED_EDGE ( 'NONE', *, *, #151, .F. ) ;
#126 = ORIENTED_EDGE ( 'NONE', *, *, #90, .F. ) ;
#127 = VECTOR ( 'NONE', #44, 1000.000000000000000 ) ;
#128 = ORIENTED_EDGE ( 'NONE', *, *, #196, .F. ) ;
#129 = CYLINDRICAL_SURFACE ( 'NONE', #124, 140.0000000000000000 ) ;
#130 = ORIENTED_EDGE ( 'NONE', *, *, #206, .T. ) ;
#131 = ORIENTED_EDGE ( 'NONE', *, *, #300, .T. ) ;
#132 = FACE_OUTER_BOUND ( 'NONE', #170, .T. ) ;
#133 = DIRECTION ( 'NONE',  ( -0.0000000000000000000, -1.000000000000000000, -0.0000000000000000000 ) ) ;
#134 = ORIENTED_EDGE ( 'NONE', *, *, #192, .F. ) ;
#135 = ORIENTED_EDGE ( 'NONE', *, *, #90, .T. ) ;
#136 = EDGE_LOOP ( 'NONE', ( #119, #117, #157 ) ) ;
#137 = ORIENTED_EDGE ( 'NONE', *, *, #77, .T. ) ;
#138 = ORIENTED_EDGE ( 'NONE', *, *, #230, .F. ) ;
#139 = ORIENTED_EDGE ( 'NONE', *, *, #62, .F. ) ;
#140 = APPROVAL_ROLE ( '' ) ;
#141 = ORIENTED_EDGE ( 'NONE', *, *, #300, .F. ) ;
#142 = ADVANCED_FACE ( 'NONE', ( #52 ), #145, .F. ) ;
#143 = ORIENTED_EDGE ( 'NONE', *, *, #151, .T. ) ;
#144 = AXIS2_PLACEMENT_3D ( 'NONE', #49, #48, #47 ) ;
#145 = TOROIDAL_SURFACE ( 'NONE', #144, -3.892584400652262300, 394.6011611333871087 ) ;
#146 = APPROVAL_ROLE ( '' ) ;
#147 = ORIENTED_EDGE ( 'NONE', *, *, #237, .F. ) ;
#148 = ORIENTED_EDGE ( 'NONE', *, *, #220, .F. ) ;
#149 = CALENDAR_DATE ( 2019, 16, 12 ) ;
#150 = ORIENTED_EDGE ( 'NONE', *, *, #252, .T. ) ;
#151 = EDGE_CURVE ( 'NONE', #105, #171, #50, .T. ) ;
#152 = CC_DESIGN_SECURITY_CLASSIFICATION ( #207, ( #111 ) ) ;
#153 = ORIENTED_EDGE ( 'NONE', *, *, #230, .T. ) ;
#154 = AXIS2_PLACEMENT_3D ( 'NONE', #66, #65, #64 ) ;
#155 = CIRCLE ( 'NONE', #154, 114.6000000000000227 ) ;
#156 = ORIENTED_EDGE ( 'NONE', *, *, #245, .T. ) ;
#157 = ORIENTED_EDGE ( 'NONE', *, *, #208, .F. ) ;
#158 = AXIS2_PLACEMENT_3D ( 'NONE', #212, #267, #60 ) ;
#159 = ORIENTED_EDGE ( 'NONE', *, *, #252, .F. ) ;
#160 = DIRECTION ( 'NONE',  ( -0.0000000000000000000, -1.000000000000000000, -0.0000000000000000000 ) ) ;
#161 = VECTOR ( 'NONE', #67, 1000.000000000000000 ) ;
#162 = AXIS2_PLACEMENT_3D ( 'NONE', #81, #80, #78 ) ;
#163 = VECTOR ( 'NONE', #72, 1000.000000000000000 ) ;
#164 = ORIENTED_EDGE ( 'NONE', *, *, #220, .T. ) ;
#165 = ADVANCED_FACE ( 'NONE', ( #43 ), #42, .T. ) ;
#166 = EDGE_LOOP ( 'NONE', ( #100, #143, #141, #139 ) ) ;
#167 = CIRCLE ( 'NONE', #63, 394.6011611333871087 ) ;
#168 = ORIENTED_EDGE ( 'NONE', *, *, #193, .T. ) ;
#169 = PRODUCT_DEFINITION_SHAPE ( 'NONE', 'NONE',  #261 ) ;
#170 = EDGE_LOOP ( 'NONE', ( #131, #130 ) ) ;
#171 = VERTEX_POINT ( 'NONE', #35 ) ;
#172 = CARTESIAN_POINT ( 'NONE',  ( 0.0000000000000000000, 139.0000000000001137, 0.0000000000000000000 ) ) ;
#173 = VERTEX_POINT ( 'NONE', #32 ) ;
#174 = VERTEX_POINT ( 'NONE', #31 ) ;
#175 = VERTEX_POINT ( 'NONE', #28 ) ;
#176 = LOCAL_TIME ( 14, 41, 11.00000000000000000, #227 ) ;
#177 = ORIENTED_EDGE ( 'NONE', *, *, #196, .T. ) ;
#178 = DIRECTION ( 'NONE',  ( 0.0000000000000000000, 0.0000000000000000000, -1.000000000000000000 ) ) ;
#179 = VERTEX_POINT ( 'NONE', #27 ) ;
#180 = CLOSED_SHELL ( 'NONE', ( #142, #203, #214, #184, #11, #232, #165, #242, #200 ) ) ;
#181 = EDGE_LOOP ( 'NONE', ( #159, #164, #168 ) ) ;
#182 = DIRECTION ( 'NONE',  ( -0.0000000000000000000, -1.000000000000000000, -0.0000000000000000000 ) ) ;
#183 = ORIENTED_EDGE ( 'NONE', *, *, #222, .F. ) ;
#184 = ADVANCED_FACE ( 'NONE', ( #25 ), #24, .F. ) ;
#185 = CARTESIAN_POINT ( 'NONE',  ( 0.0000000000000000000, -237.3902015327598463, 0.0000000000000000000 ) ) ;
#186 = APPLICATION_PROTOCOL_DEFINITION ( 'international standard', 'config_control_design', 1994, #265 ) ;
#187 = CIRCLE ( 'NONE', #292, 419.9999999999999432 ) ;
#188 = DATE_TIME_ROLE ( 'creation_date' ) ;
#189 = DESIGN_CONTEXT ( 'detailed design', #265, 'design' ) ;
#190 = PERSON_AND_ORGANIZATION ( #213, #195 ) ;
#191 = SHAPE_DEFINITION_REPRESENTATION ( #169, #250 ) ;
#192 = EDGE_CURVE ( 'NONE', #91, #175, #16, .T. ) ;
#193 = EDGE_CURVE ( 'NONE', #91, #173, #98, .T. ) ;
#194 = PRODUCT ( 'End Cap SDR11_001 117 0140 0280', 'End Cap SDR11_001 117 0140 0280', '', ( #271 ) ) ;
#195 = ORGANIZATION ( 'BELÝRTÝLMEMÝÞ', 'BELÝRTÝLMEMÝÞ', '' ) ;
#196 = EDGE_CURVE ( 'NONE', #175, #103, #79, .T. ) ;
#197 = CARTESIAN_POINT ( 'NONE',  ( 0.0000000000000000000, 157.1917597306779157, 0.0000000000000000000 ) ) ;
#198 = DIRECTION ( 'NONE',  ( -1.000000000000000000, 0.0000000000000000000, 0.0000000000000000000 ) ) ;
#199 = CARTESIAN_POINT ( 'NONE',  ( 0.0000000000000000000, 0.0000000000000000000, 0.0000000000000000000 ) ) ;
#200 = ADVANCED_FACE ( 'NONE', ( #2 ), #56, .F. ) ;
#201 = COORDINATED_UNIVERSAL_TIME_OFFSET ( 3, 0, .AHEAD. ) ;
#202 = AXIS2_PLACEMENT_3D ( 'NONE', #199, #248, #20 ) ;
#203 = ADVANCED_FACE ( 'NONE', ( #1 ), #14, .T. ) ;
#204 = PERSON_AND_ORGANIZATION ( #213, #195 ) ;
#205 = CALENDAR_DATE ( 2019, 16, 12 ) ;
#206 = EDGE_CURVE ( 'NONE', #171, #174, #4, .T. ) ;
#207 = SECURITY_CLASSIFICATION ( '', '', #34 ) ;
#208 = EDGE_CURVE ( 'NONE', #105, #109, #243, .T. ) ;
#209 = CARTESIAN_POINT ( 'NONE',  ( 0.0000000000000000000, -237.3902015327598463, 3.892584400652262300 ) ) ;
#210 = TOROIDAL_SURFACE ( 'NONE', #29, -3.892584400652262300, 419.9999999999999432 ) ;
#211 = DIRECTION ( 'NONE',  ( 0.0000000000000000000, -1.000000000000000000, -0.0000000000000000000 ) ) ;
#212 = CARTESIAN_POINT ( 'NONE',  ( -4.767041026669710746E-16, -237.3902015327598463, -3.892584400652262300 ) ) ;
#213 = PERSON ( 'BELÝRTÝLMEMÝÞ', 'BELÝRTÝLMEMÝÞ', 'BELÝRTÝLMEMÝÞ', ('BELÝRTÝLMEMÝÞ'), ('BELÝRTÝLMEMÝÞ'), ('BELÝRTÝLMEMÝÞ') ) ;
#214 = ADVANCED_FACE ( 'NONE', ( #295 ), #129, .T. ) ;
#215 = DIRECTION ( 'NONE',  ( 1.000000000000000000, 0.0000000000000000000, 0.0000000000000000000 ) ) ;
#216 = APPROVAL_DATE_TIME ( #107, #264 ) ;
#217 = APPROVAL_DATE_TIME ( #110, #279 ) ;
#218 = LOCAL_TIME ( 14, 41, 11.00000000000000000, #226 ) ;
#219 = APPROVAL_STATUS ( 'not_yet_approved' ) ;
#220 = EDGE_CURVE ( 'NONE', #101, #91, #167, .T. ) ;
#221 = AXIS2_PLACEMENT_3D ( 'NONE', #236, #277, #293 ) ;
#222 = EDGE_CURVE ( 'NONE', #109, #105, #40, .T. ) ;
#223 = CARTESIAN_POINT ( 'NONE',  ( 0.0000000000000000000, 0.0000000000000000000, 0.0000000000000000000 ) ) ;
#224 = FACE_BOUND ( 'NONE', #89, .T. ) ;
#225 = DIRECTION ( 'NONE',  ( 0.0000000000000000000, 0.0000000000000000000, -1.000000000000000000 ) ) ;
#226 = COORDINATED_UNIVERSAL_TIME_OFFSET ( 3, 0, .AHEAD. ) ;
#227 = COORDINATED_UNIVERSAL_TIME_OFFSET ( 3, 0, .AHEAD. ) ;
#228 = DATE_AND_TIME ( #149, #19 ) ;
#229 = APPROVAL_PERSON_ORGANIZATION ( #112, #104, #276 ) ;
#230 = EDGE_CURVE ( 'NONE', #173, #91, #239, .T. ) ;
#231 = CIRCLE ( 'NONE', #94, 419.9999999999999432 ) ;
#232 = ADVANCED_FACE ( 'NONE', ( #132, #224 ), #282, .T. ) ;
#233 = DIRECTION ( 'NONE',  ( -0.0000000000000000000, -1.000000000000000000, -0.0000000000000000000 ) ) ;
#234 = CARTESIAN_POINT ( 'NONE',  ( -4.767041026669710746E-16, -237.3902015327598463, -3.892584400652262300 ) ) ;
#235 = LOCAL_TIME ( 14, 41, 11.00000000000000000, #201 ) ;
#236 = CARTESIAN_POINT ( 'NONE',  ( 0.0000000000000000000, 157.1917597306779157, 0.0000000000000000000 ) ) ;
#237 = EDGE_CURVE ( 'NONE', #179, #109, #187, .T. ) ;
#238 = PERSON_AND_ORGANIZATION ( #213, #195 ) ;
#239 = CIRCLE ( 'NONE', #118, 114.5999999999999659 ) ;
#240 = PERSON_AND_ORGANIZATION ( #213, #195 ) ;
#241 = PERSON_AND_ORGANIZATION_ROLE ( 'classification_officer' ) ;
#242 = ADVANCED_FACE ( 'NONE', ( #17 ), #210, .T. ) ;
#243 = CIRCLE ( 'NONE', #221, 139.9999999999999716 ) ;
#244 =( GEOMETRIC_REPRESENTATION_CONTEXT ( 3 ) GLOBAL_UNCERTAINTY_ASSIGNED_CONTEXT ( ( #304 ) ) GLOBAL_UNIT_ASSIGNED_CONTEXT ( ( #299, #284, #268 ) ) REPRESENTATION_CONTEXT ( 'NONE', 'WORKASPACE' ) );
#245 = EDGE_CURVE ( 'NONE', #179, #105, #231, .T. ) ;
#246 = DIRECTION ( 'NONE',  ( -0.0000000000000000000, -1.000000000000000000, -0.0000000000000000000 ) ) ;
#247 = DIRECTION ( 'NONE',  ( 0.0000000000000000000, 0.0000000000000000000, 1.000000000000000000 ) ) ;
#248 = DIRECTION ( 'NONE',  ( -0.0000000000000000000, -1.000000000000000000, -0.0000000000000000000 ) ) ;
#249 = CC_DESIGN_APPROVAL ( #104, ( #207 ) ) ;
#250 = ADVANCED_BREP_SHAPE_REPRESENTATION ( 'End Cap SDR11_001 117 0140 0280', ( #270, #275 ), #244 ) ;
#251 = PERSON_AND_ORGANIZATION ( #213, #195 ) ;
#252 = EDGE_CURVE ( 'NONE', #101, #173, #254, .T. ) ;
#253 = CALENDAR_DATE ( 2019, 16, 12 ) ;
#254 = CIRCLE ( 'NONE', #158, 394.6011611333871087 ) ;
#255 = APPLICATION_CONTEXT ( 'configuration controlled 3d designs of mechanical parts and assemblies' ) ;
#256 = PERSON_AND_ORGANIZATION_ROLE ( 'design_supplier' ) ;
#257 = DATE_AND_TIME ( #205, #84 ) ;
#258 = CC_DESIGN_PERSON_AND_ORGANIZATION_ASSIGNMENT ( #251, #26, ( #194 ) ) ;
#259 = APPROVAL_PERSON_ORGANIZATION ( #240, #279, #146 ) ;
#260 = CARTESIAN_POINT ( 'NONE',  ( 0.0000000000000000000, 0.0000000000000000000, 0.0000000000000000000 ) ) ;
#261 = PRODUCT_DEFINITION ( 'BÝLÝNMEYEN', '', #111, #189 ) ;
#262 = AXIS2_PLACEMENT_3D ( 'NONE', #96, #211, #266 ) ;
#263 = DIRECTION ( 'NONE',  ( -1.000000000000000000, 0.0000000000000000000, 0.0000000000000000000 ) ) ;
#264 = APPROVAL ( #302, 'BELÝRTÝLMEMÝÞ' ) ;
#265 = APPLICATION_CONTEXT ( 'configuration controlled 3d designs of mechanical parts and assemblies' ) ;
#266 = DIRECTION ( 'NONE',  ( 0.0000000000000000000, 0.0000000000000000000, -1.000000000000000000 ) ) ;
#267 = DIRECTION ( 'NONE',  ( 1.000000000000000000, 0.0000000000000000000, -1.224646799147353207E-16 ) ) ;
#268 =( NAMED_UNIT ( * ) SI_UNIT ( $, .STERADIAN. ) SOLID_ANGLE_UNIT ( ) );
#269 = AXIS2_PLACEMENT_3D ( 'NONE', #260, #160, #33 ) ;
#270 = MANIFOLD_SOLID_BREP ( 'Döndür1', #180 ) ;
#271 = MECHANICAL_CONTEXT ( 'NONE', #255, 'mechanical' ) ;
#272 = CC_DESIGN_PERSON_AND_ORGANIZATION_ASSIGNMENT ( #273, #68, ( #261 ) ) ;
#273 = PERSON_AND_ORGANIZATION ( #213, #195 ) ;
#274 = PERSON_AND_ORGANIZATION ( #213, #195 ) ;
#275 = AXIS2_PLACEMENT_3D ( 'NONE', #285, #102, #215 ) ;
#276 = APPROVAL_ROLE ( '' ) ;
#277 = DIRECTION ( 'NONE',  ( -0.0000000000000000000, -1.000000000000000000, -0.0000000000000000000 ) ) ;
#278 = CC_DESIGN_DATE_AND_TIME_ASSIGNMENT ( #30, #188, ( #261 ) ) ;
#279 = APPROVAL ( #303, 'BELÝRTÝLMEMÝÞ' ) ;
#280 = DIRECTION ( 'NONE',  ( -0.0000000000000000000, -1.000000000000000000, -0.0000000000000000000 ) ) ;
#281 = CIRCLE ( 'NONE', #202, 140.0000000000000000 ) ;
#282 = PLANE ( 'NONE',  #262 ) ;
#283 = DIRECTION ( 'NONE',  ( 1.000000000000000000, 0.0000000000000000000, -1.224646799147353207E-16 ) ) ;
#284 =( NAMED_UNIT ( * ) PLANE_ANGLE_UNIT ( ) SI_UNIT ( $, .RADIAN. ) );
#285 = CARTESIAN_POINT ( 'NONE',  ( 0.0000000000000000000, 0.0000000000000000000, 0.0000000000000000000 ) ) ;
#286 = CC_DESIGN_PERSON_AND_ORGANIZATION_ASSIGNMENT ( #274, #71, ( #111 ) ) ;
#287 = CALENDAR_DATE ( 2019, 16, 12 ) ;
#288 = CALENDAR_DATE ( 2019, 16, 12 ) ;
#289 = DATE_TIME_ROLE ( 'classification_date' ) ;
#290 = CC_DESIGN_APPROVAL ( #279, ( #111 ) ) ;
#291 = CC_DESIGN_PERSON_AND_ORGANIZATION_ASSIGNMENT ( #204, #256, ( #111 ) ) ;
#292 = AXIS2_PLACEMENT_3D ( 'NONE', #57, #198, #247 ) ;
#293 = DIRECTION ( 'NONE',  ( 0.0000000000000000000, 0.0000000000000000000, -1.000000000000000000 ) ) ;
#294 = CC_DESIGN_PERSON_AND_ORGANIZATION_ASSIGNMENT ( #190, #241, ( #207 ) ) ;
#295 = FACE_OUTER_BOUND ( 'NONE', #166, .T. ) ;
#296 = DIRECTION ( 'NONE',  ( 0.0000000000000000000, 0.0000000000000000000, -1.000000000000000000 ) ) ;
#297 = APPROVAL_PERSON_ORGANIZATION ( #238, #264, #140 ) ;
#298 = CARTESIAN_POINT ( 'NONE',  ( 0.0000000000000000000, -237.3902015327598463, 0.0000000000000000000 ) ) ;
#299 =( LENGTH_UNIT ( ) NAMED_UNIT ( * ) SI_UNIT ( .MILLI., .METRE. ) );
#300 = EDGE_CURVE ( 'NONE', #174, #171, #281, .T. ) ;
#301 = CARTESIAN_POINT ( 'NONE',  ( 0.0000000000000000000, -237.3902015327598463, 0.0000000000000000000 ) ) ;
#302 = APPROVAL_STATUS ( 'not_yet_approved' ) ;
#303 = APPROVAL_STATUS ( 'not_yet_approved' ) ;
#304 = UNCERTAINTY_MEASURE_WITH_UNIT (LENGTH_MEASURE( 1.000000000000000082E-05 ), #299, 'distance_accuracy_value', 'NONE');
#305 = DIRECTION ( 'NONE',  ( -0.0000000000000000000, -1.000000000000000000, -0.0000000000000000000 ) ) ;
#306 = COORDINATED_UNIVERSAL_TIME_OFFSET ( 3, 0, .AHEAD. ) ;
#307 = CC_DESIGN_DATE_AND_TIME_ASSIGNMENT ( #228, #289, ( #207 ) ) ;
ENDSEC;
END-ISO-10303-21;
